ForumForumiPytësoriKërkoLista AnëtarëveGrupet e AnëtarëveRegjistrohuidentifikimi

Share | 
 

 Tab per Gitare

Shko poshtë 
AutoriMesazh
The.Timmi
..Administrator..
..Administrator..
avatar

Numri i postimeve : 419
Age : 24
Vendodhja : www.Alba-oNe.tK
Registration date : 25/10/2008

MesazhTitulli: Tab per Gitare   Sat Oct 25, 2008 12:59 pm

7me7 - Keq

C / G# / F / E

Pjesa kryesore
e|------------------------------------------------------------------
B|------------------------------------------------------------------
G|------------------------------------------------------------------
D|---10--10-----6--6--6------3--2--2--3--2--3---------------------
A|---10--10-----6--6--6------3--3--2--3--2--3---------------------
E|---8---8-------4--4--4------1--1--0--1--0--1--------------------

Intro
e|------------------------------------------------------------------
B|----9--8--7--8--------------------------9--8--7--8---------------
G|-----------------8--5--5--4--5--4--5-----------------------------
D|------------------------------------------------------------------
A|------------------------------------------------------------------
E|------------------------------------------------------------------

e|------8-----8------8------8---------------------------11-10---- -
B|---8----8------8------8------8----9--8--7--8---8-------------- --
G|------------------------------------------------------------------
D|------------------------------------------------------------------
A|------------------------------------------------------------------
E|------------------------------------------------------------------

e|----10-----10------10-------8-----------------------------------------------
B|-8------8-------8--------8-------9--8--7--8---------------------------------
G|-------------------------------------------------8--5--5--4--5---5--5--4--5
D|-----------------------------------------------------------------------------
A|------------------------------------------------------------------ ----------
E|-----------------------------------------------------------------------------

Kah mesi kenges eshte ni pjese me gitare (perseritet)
e|------------------------------------------------------------------
B|-------7--8------7--8--------7--8-------7--8------------------- -
G|---5----------5----------5------------5----------5--5---------- -
D|------------------------------------------------------------------
A|------------------------------------------------------------------
E|------------------------------------------------------------------`
Mbrapsht në krye Shko poshtë
Shiko profilin e anëtarit http://presheva.albanianforum.net
The.Timmi
..Administrator..
..Administrator..
avatar

Numri i postimeve : 419
Age : 24
Vendodhja : www.Alba-oNe.tK
Registration date : 25/10/2008

MesazhTitulli: Re: Tab per Gitare   Sat Oct 25, 2008 1:00 pm

Elita 5 - Faleminderit

E||-----1---3p1--5-5p3-1--3p1-----------1------------------1---5p3/1--1--||
B||---3---3----------------3-----------3------3---3--------3------------------||
G||----------------------------------2---2-------2-------2---------------------||
D||-0-----------------------------0-------------------0------------------------||
A||----------------------------------------------------------------------------||
E||-----------------------------------------------------------------------------||
-

E||-----1---3p1--5-5p3--1-----1---1--3/5\1--------------------------||
B||---3---3-------------------3---3-----------------------------------||
G||-------------------------------------------------------------------||
D||-0---------------------0-------------------------------------------||
A||-------------------------------------------------------------------||
E||-------------------------------------------------------------------||
Mbrapsht në krye Shko poshtë
Shiko profilin e anëtarit http://presheva.albanianforum.net
The.Timmi
..Administrator..
..Administrator..
avatar

Numri i postimeve : 419
Age : 24
Vendodhja : www.Alba-oNe.tK
Registration date : 25/10/2008

MesazhTitulli: Re: Tab per Gitare   Sat Oct 25, 2008 1:00 pm

Ngroba - Syt e tu

intro
e---------------------------------
b---------------------------------
g---------------------------------
d---------------------------------
a--7---7-7----7/8\5/7---5/7--7-7--
e--5---5-5----5/6\3/5---3/5--5-5--


e---------------------------------
b---------------------------------
g---------------------------------
d---------------------------------------------------------
a--7--7-7--x-x-x-7-8-5-7-x-x-5/7--7-7--x-x-x--5--5-5-4----
e--5--5-5--x-x-x-5-6-3-5-x-x-3/5--5-5--x-x-x---------6-5--

e---------------------------------
b---------------------------------
g---------------------------------
d---------------------------------------------------------------
a--7--7-7--x-x-x-7-8-5-7-x-x-5/7--7-7--x-x-x--5--5-5-4-5-4-5/7--
e--5--5-5--x-x-x-5-6-3-5-x-x-3/5--5-5--x-x-x--------------------

e---------------------------------
b---------------------------------
g---------------------------------
d---------------------------7-7-7p5---------------------
a--7-7--7-8-5-7--5h7--7-7----5-5-5---8p5--5h7-7-7--x-x-x-
e--5-5--5-5-5-5--5~ --5-5----x-x-x---5----5---5-5--x-x-x-

e---------------------------------
b---------------------------------
g---------------------------------
d-------------------------------------------
a-7-8-5-7--x-x--5h7-7-7----7-5-4---5-4------
e-5-5-5-5--x-x--5---5-5----------------6----



Strofa 1
e--1-------------1-------------- pauze per bass pastaj edhe 1x
b--3-------------3--------------
g--2-------------2--------------
d--0-------------0--------------
a-------------------------------
e-------------------------------


Strofa 2
e--------------|--------------- 2x
b--------------|---------------
g--------------|---------------
d--------------|---------------
a---8----------|---7-----------
e---6----------|---5-----------


Break (e shuajtur)
e--------------|
b--------------|
g--------------|
d---7-7-7-7----|
a---5-5-5-5----|
e---5-5-5-5----|


Ritmi te solo:
D dhe A

D A
d--7--------- d-------
a--5--------- a--7----
e--5--------- e--5----
Mbrapsht në krye Shko poshtë
Shiko profilin e anëtarit http://presheva.albanianforum.net
The.Timmi
..Administrator..
..Administrator..
avatar

Numri i postimeve : 419
Age : 24
Vendodhja : www.Alba-oNe.tK
Registration date : 25/10/2008

MesazhTitulli: Re: Tab per Gitare   Sat Oct 25, 2008 1:01 pm

Përsëri – Minatori

Capo - vëhet në tastierën e parë
Intro x 2
E------------------0----------------|
B--------------0h1---1--------1-----|
G-----------------------0---0-------|
D-------------------------2---------|
A---3p2--3--------------------------|
E-3---------------------------------|

E--------------------0---------0----|
B--------------0h1----1------1------|
G------------------------2-0--------|
D--0--------------------------------|
A----3p2-0~~------------------------|
E-----------------------------------|

E------------------0---------------|
B--------------0h1---1--------1----|
G-----------------------0---0------|
D-------------------------2--------|
A---3p2--3-------------------------|
E-3--------------------------------|


E-------------------------3-----------3-|
B-----------------------3---3-----------|
G-------0------------0--------0----0----|
D----2-------0~~~----------------0------|
A--3------------------------------------|
E---------------------------------------|

Gjatë strofës përveç notave të cilat përdoren në intro
lajmërohet edhe kjo pjesë:

E---------------1-------------0--------------3-------3--|
B-------------1---1--------1---1-----------3--3-------3-|
G----------2--------2----0--------0------0-----0---0----|
D--0-2-3--------------2-------------2--0---------0------|
A-------------------------------------------------------|
E-------------------------------------------------------|

E---------------1------------0--------------3-----------|
B-------------1--1---------1---1----------3---3---------|
G----------2------2-----0--------0------0------0--------|
D--0-2-3-------------2-------------2--0---------0-------|
A-------------------------------------------------------|
E-------------------------------------------------------|

Refreni:
(me dist. C#5 Bb5 F#5 G#5 )

C# Bmb F# G#
Përsëri Përsëri Përsëri Ti je këtu

Akordet të cilat përdoren gjatë refrenit janë:


me Capo
C# X43121 C#5 x466xx
Bmb X13321 Bb5 x133xx
F# 244322 F#5 244xxx
G# 466544 G#5 466xxx


Solo:

E----------------------------------------------------------|
B----------------------------------------------------------|
G-10~~---10h11-10~ ~---8h9p8~~----5/6--5~~-----------------|
D-----11-------------8----------6----------6/8—6~~---------|
A----------------------------------------------------------|
E----------------------------------------------------------|


E----------------------------------------------------------------|
B-9/11-9~----9--11~13-----13/14-13~11------18/19-18~16-14-end-19-|
G--------10----------13~--------------13~------------------------|
D----------------------------------------------------------------|
A----------------------------------------------------------------|
E----------------------------------------------------------------|

Simbolet të cilat i kam përdorur janë ndërkombëtare:
h – hummer
/ - slide
~ - vibrato
p – pull off
Mbrapsht në krye Shko poshtë
Shiko profilin e anëtarit http://presheva.albanianforum.net
The.Timmi
..Administrator..
..Administrator..
avatar

Numri i postimeve : 419
Age : 24
Vendodhja : www.Alba-oNe.tK
Registration date : 25/10/2008

MesazhTitulli: Re: Tab per Gitare   Sat Oct 25, 2008 1:01 pm

Minatori – udha e mbare te qofte

Intro

-----------0----------0--------0----------------------------------------------------
---------1----------3--------0--0---------------------------------------------------
-------2----------4--------5------5--------------X4 -------------------------------
-----3----------5--------7---------7-7---------------------------------------------
-------------------------------------------------------------------------------------
-------------------------------------------------------------------------------------


Verse 1

Udha e mbare te qofte.....
-----------0----------0--------0--------------------------------------------------
---------1----------3--------0--0-------------------------------------------------
-------2----------4--------5------5-----------------------------------------------
-----3----------5--------7---------7-7--------------------------------------------
------------------------------------------------------------------------------------
------------------------------------------------------------------------------------

-----------0----------0--------0----------------------------------------------------
---------1----------3--------0--0---------------------------------------------------
-------2----------4--------5------5-------------------------------------------------
-----3----------5--------7---------7-7---------------------------------------------
-------------------------------------------------------------------------------------
-------------------------------------------------------------------------------------


Verse 2
Mund te shkosh ku nuk.....
tani shkon C / Dmol / F / G / Amol X1
C / Dmol / F / G / E
Mbrapsht në krye Shko poshtë
Shiko profilin e anëtarit http://presheva.albanianforum.net
Sponsored content




MesazhTitulli: Re: Tab per Gitare   

Mbrapsht në krye Shko poshtë
 
Tab per Gitare
Mbrapsht në krye 
Faqja 1 e 1

Drejtat e ktij Forumit:Ju nuk mund ti përgjigjeni temave të këtij forumi
 :: Kultura :: Muzika Shqiptare-
Kërce tek: